NFG Street Team France

Le forum de la Street Team Française de New Found Glory
 
AccueilAccueil  RechercherRechercher  S'enregistrerS'enregistrer  Connexion  

Partagez
 

 tablature de NFG

Aller en bas 
AuteurMessage
jlm182
Standstill
jlm182

Nombre de messages : 74
Age : 27
Date d'inscription : 30/12/2006

tablature de NFG Empty
MessageSujet: tablature de NFG   tablature de NFG EmptyDim 31 Déc - 0:34

Bah je trouve que se serait une bonne idée de metre les partition de NFG pour les guitaristes puissent s entrainner a jouer leur morceaux donc j en met quelque une pour commencer et puis vous , mettez celle que vous avez Exclamation

dressed to kill:
Intro Riff
Gtr 1
E|----------------||
B|----------------||
G|----------------||
D|-0-0-x-x-2-2----||
A|-0-0-x-x-2-2----||
D|-0-0-x-x-2-2----||

Intro Riff
Gtr 2
(the best thing 2 do here is bar the 9th fret)
E|---------12-----10--9||
B|------10-------------||
G|--9-9-------9-9------||
D|---------------------||
A|---------------------||
D|---------------------||

Intro
Gtr 1
E|--------------------------------------------------------||
B|--------------------------------------------------------||
G|--------------------------------------------------------||
D|-7-7-7--7-7-7--7-7-7--7-7-7--4-4-4--4-4-4--0-0-x-x-2-2--||
A|-7-7-7--7-7-7--7-7-7--7-7-7--4-4-4--4-4-4--0-0-x-x-2-2--||
D|-7-7-7--7-7-7--6-6-6--6-6-6--4-4-4--4-4-4--0-0-x-x-2-2--||

Gtrs 1&2 (b4 verse)
E|----------------||
B|----------------||
G|----------------||
D|----7-----------||
A|----7-----------||
D|----7-----------||

Verse
Gtr 1 & 2
p.m p.m p.m p.m p.m p.m p.m p.m
E|----------------------------------------------------------------------||
B|----------------------------------------------------------------------||
G|----------------------------------------------------------------------||
D|-7--7-7--7--7-7-\-6--6-6--6--6-6-\-4--4-4--4--4-4-\-2--2-2--2-2--2-2--||
A|-7--7-7--7--7-7-\-6--6-6--6--6-6-\-4--4-4--4--4-4-\-2--2-2--2-2--2-2--||
D|-7--7-7--7--7-7-\-6--6-6--6--6-6-\-4--4-4--4--4-4-\-2--2-2--2-2--2-2--||

p.m p.m p.m p.m
E|------------------------------------------------------||
B|------------------------------------------------------||
G|------------------------------------------------------||
D|-7--7-7--7--7-\-6--9-9-\7--4-/-7-\-4-\-2-2-2-2--------||
A|-7--7-7--7--7-\-6--9-9-\7--4-/-7-\-4-\-2-2-2-2--------||
D|-7--7-7--7--7-\-6--9-9-\7--4-/-7-\-4-\-2-2-2-2--------||

E|-------------------------------------------------------||
B|-------------------------------------------------------||
G|-------------------------------------------------------||
D|--7-7-7-7-7-7-7--9-9-9-9-9-9-9--4-4-4-4-4-4-4--2-2-2-2-||
A|--7-7-7-7-7-7-7--9-9-9-9-9-9-9--4-4-4-4-4-4-4--2-2-2-2-||
D|--7-7-7-7-7-7-7--9-9-9-9-9-9-9--4-4-4-4-4-4-4--2-2-2-2-||

Pre chorus
Gtr 1
E|------0------------------||
B|------0------------------||
G|-------------------------||
D|--0-------4--\---2-------||
A|--0-------4--\---2-------||
D|--0-------4--\---2-------||

Bridge
Gtr 1&2
let ring----------|
E|-----------------------------||
B|-----------------------------||
G|-----------------------------||
D|--0---2---4---6--7-----------||
A|--0---2---4---6--7-----------||
D|--0---2---4---6--7-----------||
p.m----------|
E|------------------------------------------||
B|------------------------------------------||
G|------------------------------------------||
D|-7-7-7-7-7-7-7-7--0-0-0-0-x-x-0-0-0-0-x-x-||
A|-7-7-7-7-7-7-7-7--0-0-0-0-x-x-0-0-0-0-x-x-||
D|-7-7-7-7-7-7-7-7--0-0-0-0-x-x-0-0-0-0-x-x-||

p.m--|
E|------------------||
B|------------------||
G|------------------||
D|--0-0-0--0--------||
A|--0-0-0--0--------||
D|--0-0-0--0--------||

Song Order
Intro riffs
Intro
Verse
Pre chorus
Chorus (same as intro)
Bridge
Chorus
Bridge
__________________________________________________
Head On Collision :
intro (distortion)
e--------------------------------------------------------------
b--------------------------------------------------------------
g--------------------------------------777-666-777-6666666-----
d-------------------777777-99999999999-xxx-xxx-xxx-xxxxxxx-----
a-5457545454575454--777777-99999999999-555-444-555-4444444-----
e-------------------555555-77777777777-------------------------

e-----------------------------------------------
b-----------------------------------------------
g-----------------------------------------------
d-777777-9999999999------------------7----------
a-777777-9999999999-5457545454575454-7----------
e-555555-7777777777------------------5----------

verse (clean)
e-----------------------------------------------------listen to the song for
b-----------------------------------------------------timing and how many times
g-----------------------------------------------------to strum the chords
d-7-77-4-44--7-77--4-44--77777777-44444444------------
a-7-77-4-44--7-77--4-44--77777777-44444444------------
e-5-55-2-22--5-55--2-22--55555555-22222222------------

pre-chorus (distortion)
e----------------------------------------
b----------------------------------------
g----------------------------------------
d-22222222222222222222-22222222----------
a-22222222222222222222-22222222----------
e-00000000000000000000-00000000----------
pm ........

chorus (distortion)
e------------------------------------------------------------------------------
b------------------------------------------------------------------------------
g-------------------777-666-777-6666666----------------------------------------
d-777777-9999999999-xxx-xxx-xxx-xxxxxxx-777777-9999999999-----------------x2-7-
a-777777-9999999999-555-444-555-4444444-777777-9999999999-5457545454575454---7-
e-555555-7777777777---------------------555555-7777777777--------------------5-

verse

pre-chorus

chorus

solo (distortion)
e---------------------------------------------------------------------
b---------------------------------------------------------------------
g---------6-------9-------6---6h7p6-----------------------------------x2
d-----7-------7-------7-----------------7---9---7-----6h7-----6h7-----
a-0-0---0---0---0---0---0---0-------7-7---7---7---5-5-----7-7---------
e---------------------------------------------------------------------
pm. . . . . . . . . . . . . .

e------------------------------------------------------------------------------
b------------------------------------------------------------------------------
g-77777777-----------------77777777-----------------77777777-some-type-of------
d-77777777-----6h7-----6h7-77777777-----6h7-----5h7-77777777-feedback/harmonic-
a-55555555-5-5-----7-7-----55555555-5-5-----7-7-----55555555-------------------
e------------------------------------------------------------------------------
. . . .

other guitar during solo (distortion)
e---------------------listen to song for
b---------------------timing on when to play
g-------77-99---------it
d-77-99-77-99---------
a-77-99-55-77---------
e-55-77---------------

thats it not that hard at all just listen to the song for timing. NEW FOUND GLORY ROX!

pre-chorus (distortion)
e------------------------------------------
b------------------------------------------
g------------------------------------------
d-2222222222222222-22-2-222-2-2222---------
a-2222222222222222-22-2-222-2-2222---------
e-0000000000000000-00-0-000-0-0000---------
pm .. . ... . ....

chorus

outro (distortion)
e--------------------------------------
b--------------------------------------
g---------6-------9-------6---6h7p6----x6
d-----7-------7-------7----------------
a-0-0---0---0---0---0---0---0----------
e--------------------------------------
pm. . . . . . . .

other guitar during outro (distortion)
e----------------------------------------------
b----------------------------------------------
g-------------------7777777777777777-----------
d-777777-9999999999-7777777777777777-----------x3
a-777777-9999999999-5555555555555555-----------
e-555555-7777777777----------------------------

e---------------------------------------------------------------------
b---------------------------------------------------------------------
g--------------------777-666-777-666-xxxx-----------------------------
d-7777------99999999-xxx-xxx-xxx-xxx-xxxx------------------7----------
a-7777-stop-99999999-555-444-555-444-xxxx-5457545454575454-7----------
e-5555------77777777---------------------------------------5----------

et puis a partir d ici je met les liens je pense que se sera mieux
hit or miss
http://www.ultimate-guitar.com/tabs/n/new_found_glory/hit_or_miss_tab.htm

i dont wanna know
http://www.ultimate-guitar.com/tabs/n/new_found_glory/i_dont_wanna_know_tab.htm

sincerely me
http://www.ultimate-guitar.com/tabs/n/new_found_glory/sincerely_me_tab.htm

et pour terminer my friend over you
http://www.ultimate-guitar.com/tabs/n/new_found_glory/my_friends_over_you_tab.htm
Revenir en haut Aller en bas
Nagwa
At Least I'm Known For Something
Nagwa

Nombre de messages : 1218
Localisation : Paris
Date d'inscription : 22/01/2005

tablature de NFG Empty
MessageSujet: Re: tablature de NFG   tablature de NFG EmptyDim 31 Déc - 0:42

Aha! Tazza, c pour toi ca Wink

_________________
NFGofLove!tablature de NFG Acrow3FrenchToastIsVegan!
Revenir en haut Aller en bas
https://www.youtube.com/user/TheDuckster
jlm182
Standstill
jlm182

Nombre de messages : 74
Age : 27
Date d'inscription : 30/12/2006

tablature de NFG Empty
MessageSujet: Re: tablature de NFG   tablature de NFG EmptyDim 31 Déc - 0:52

j avais oublié celle que jaime beaucoup...
something i call personality:
http://www.ultimate-guitar.com/tabs/n/new_found_glory/something_i_call_personality_tab.htm
Revenir en haut Aller en bas
Tazza
It's Been A Summer
Tazza

Nombre de messages : 768
Localisation : Paris
Date d'inscription : 22/01/2005

tablature de NFG Empty
MessageSujet: Re: tablature de NFG   tablature de NFG EmptyMer 3 Jan - 16:40

OOOOOooooh excellent!!! de quoi entrainer mes ptis doigts!!! LOL

Par contre je voudrais savoir si tu es toi meme un apprenti guitariste (ou guitariste averti) parce ke souvent les tabs sur le net, faut sy reprendre à plusieurs fois, parce ke soit ça sonne faux, legerement modifié et pas souvent fidèle à la version originale. Donc jme demande si tu les a vérifé ou koi? Histoire ke jme lance pas dans une session d'apprentissage..dans le faux LOL

Merci en tout cas pour la section! ça fait plaiz de voir des gens ki se bougent le cul !

_________________
Growing old, that's mandatory, but growing up...that my friend...is...optional !
Revenir en haut Aller en bas
jlm182
Standstill
jlm182

Nombre de messages : 74
Age : 27
Date d'inscription : 30/12/2006

tablature de NFG Empty
MessageSujet: Re: tablature de NFG   tablature de NFG EmptyMer 3 Jan - 23:14

bien que j ai 14 ans... je joue de la guitare(niveau 3 ans) et je suis champion de batterie de france dans la section junior....
ses tabs sont bi1 mais souvent simplifié!!!
Voila
Revenir en haut Aller en bas
Contenu sponsorisé




tablature de NFG Empty
MessageSujet: Re: tablature de NFG   tablature de NFG Empty

Revenir en haut Aller en bas
 
tablature de NFG
Revenir en haut 
Page 1 sur 1

Permission de ce forum:Vous ne pouvez pas répondre aux sujets dans ce forum
NFG Street Team France :: New Found Glory :: News-
Sauter vers: